ISO-10303-21;
HEADER;
/* Generated by software containing ST-Developer
 * from STEP Tools, Inc. (www.steptools.com) 
 */

FILE_DESCRIPTION(
/* description */ (''),
/* implementation_level */ '2;1');

FILE_NAME(
/* name */ '',
/* time_stamp */ '2023-08-15T14:24:38+07:00',
/* author */ ('zeta-09'),
/* organization */ (''),
/* preprocessor_version */ 'ST-DEVELOPER v19.2',
/* originating_system */ 'Autodesk Inventor 2024',
/* authorisation */ '');

FILE_SCHEMA (('AUTOMOTIVE_DESIGN { 1 0 10303 214 3 1 1 }'));
ENDSEC;

DATA;
#10=MECHANICAL_DESIGN_GEOMETRIC_PRESENTATION_REPRESENTATION('',(#60,#61,
#62,#63,#64),#138);
#11=SHAPE_REPRESENTATION_RELATIONSHIP('SRR','None',#145,#12);
#12=ADVANCED_BREP_SHAPE_REPRESENTATION('',(#13),#137);
#13=MANIFOLD_SOLID_BREP('\X2\04220432043504400434043E0435\X0\ \X2\04420435043B043E\X0\1',
#69);
#14=FACE_BOUND('',#25,.T.);
#15=FACE_BOUND('',#27,.T.);
#16=PLANE('',#98);
#17=PLANE('',#99);
#18=FACE_OUTER_BOUND('',#22,.T.);
#19=FACE_OUTER_BOUND('',#23,.T.);
#20=FACE_OUTER_BOUND('',#24,.T.);
#21=FACE_OUTER_BOUND('',#26,.T.);
#22=EDGE_LOOP('',(#46,#47,#48,#49));
#23=EDGE_LOOP('',(#50,#51,#52,#53));
#24=EDGE_LOOP('',(#54));
#25=EDGE_LOOP('',(#55));
#26=EDGE_LOOP('',(#56));
#27=EDGE_LOOP('',(#57));
#28=LINE('',#125,#30);
#29=LINE('',#131,#31);
#30=VECTOR('',#106,16.);
#31=VECTOR('',#113,20.);
#32=CIRCLE('',#93,16.);
#33=CIRCLE('',#94,16.);
#34=CIRCLE('',#96,20.);
#35=CIRCLE('',#97,20.);
#36=VERTEX_POINT('',#122);
#37=VERTEX_POINT('',#124);
#38=VERTEX_POINT('',#128);
#39=VERTEX_POINT('',#130);
#40=EDGE_CURVE('',#36,#36,#32,.T.);
#41=EDGE_CURVE('',#36,#37,#28,.T.);
#42=EDGE_CURVE('',#37,#37,#33,.T.);
#43=EDGE_CURVE('',#38,#38,#34,.T.);
#44=EDGE_CURVE('',#38,#39,#29,.T.);
#45=EDGE_CURVE('',#39,#39,#35,.T.);
#46=ORIENTED_EDGE('',*,*,#40,.F.);
#47=ORIENTED_EDGE('',*,*,#41,.T.);
#48=ORIENTED_EDGE('',*,*,#42,.F.);
#49=ORIENTED_EDGE('',*,*,#41,.F.);
#50=ORIENTED_EDGE('',*,*,#43,.T.);
#51=ORIENTED_EDGE('',*,*,#44,.T.);
#52=ORIENTED_EDGE('',*,*,#45,.F.);
#53=ORIENTED_EDGE('',*,*,#44,.F.);
#54=ORIENTED_EDGE('',*,*,#43,.F.);
#55=ORIENTED_EDGE('',*,*,#42,.T.);
#56=ORIENTED_EDGE('',*,*,#45,.T.);
#57=ORIENTED_EDGE('',*,*,#40,.T.);
#58=CYLINDRICAL_SURFACE('',#92,16.);
#59=CYLINDRICAL_SURFACE('',#95,20.);
#60=STYLED_ITEM('',(#155),#65);
#61=STYLED_ITEM('',(#155),#66);
#62=STYLED_ITEM('',(#155),#67);
#63=STYLED_ITEM('',(#155),#68);
#64=STYLED_ITEM('',(#154),#13);
#65=ADVANCED_FACE('',(#18),#58,.F.);
#66=ADVANCED_FACE('',(#19),#59,.T.);
#67=ADVANCED_FACE('',(#20,#14),#16,.F.);
#68=ADVANCED_FACE('',(#21,#15),#17,.T.);
#69=CLOSED_SHELL('',(#65,#66,#67,#68));
#70=DERIVED_UNIT_ELEMENT(#73,1.);
#71=DERIVED_UNIT_ELEMENT(#140,-3.);
#72=DIMENSIONAL_EXPONENTS(0.,1.,0.,0.,0.,0.,0.);
#73=(
CONVERSION_BASED_UNIT('gram',#75)
MASS_UNIT()
NAMED_UNIT(#72)
);
#74=(
MASS_UNIT()
NAMED_UNIT(*)
SI_UNIT(.KILO.,.GRAM.)
);
#75=MASS_MEASURE_WITH_UNIT(MASS_MEASURE(0.001),#74);
#76=DERIVED_UNIT((#70,#71));
#77=MEASURE_REPRESENTATION_ITEM('density measure',
POSITIVE_RATIO_MEASURE(1.),#76);
#78=PROPERTY_DEFINITION_REPRESENTATION(#83,#80);
#79=PROPERTY_DEFINITION_REPRESENTATION(#84,#81);
#80=REPRESENTATION('material name',(#82),#137);
#81=REPRESENTATION('density',(#77),#137);
#82=DESCRIPTIVE_REPRESENTATION_ITEM('\X2\04220438043F043E0432044B0435\X0\',
'\X2\04220438043F043E0432044B0435\X0\');
#83=PROPERTY_DEFINITION('material property','material name',#147);
#84=PROPERTY_DEFINITION('material property','density of part',#147);
#85=DATE_TIME_ROLE('creation_date');
#86=APPLIED_DATE_AND_TIME_ASSIGNMENT(#87,#85,(#147));
#87=DATE_AND_TIME(#88,#89);
#88=CALENDAR_DATE(2023,15,8);
#89=LOCAL_TIME(0,0,0.,#90);
#90=COORDINATED_UNIVERSAL_TIME_OFFSET(0,0,.BEHIND.);
#91=AXIS2_PLACEMENT_3D('',#120,#100,#101);
#92=AXIS2_PLACEMENT_3D('',#121,#102,#103);
#93=AXIS2_PLACEMENT_3D('',#123,#104,#105);
#94=AXIS2_PLACEMENT_3D('',#126,#107,#108);
#95=AXIS2_PLACEMENT_3D('',#127,#109,#110);
#96=AXIS2_PLACEMENT_3D('',#129,#111,#112);
#97=AXIS2_PLACEMENT_3D('',#132,#114,#115);
#98=AXIS2_PLACEMENT_3D('',#133,#116,#117);
#99=AXIS2_PLACEMENT_3D('',#134,#118,#119);
#100=DIRECTION('axis',(0.,0.,1.));
#101=DIRECTION('refdir',(1.,0.,0.));
#102=DIRECTION('center_axis',(0.,0.,1.));
#103=DIRECTION('ref_axis',(-1.,0.,0.));
#104=DIRECTION('center_axis',(0.,0.,1.));
#105=DIRECTION('ref_axis',(-1.,0.,0.));
#106=DIRECTION('',(0.,0.,1.));
#107=DIRECTION('center_axis',(0.,0.,-1.));
#108=DIRECTION('ref_axis',(-1.,0.,0.));
#109=DIRECTION('center_axis',(0.,0.,1.));
#110=DIRECTION('ref_axis',(-1.,0.,0.));
#111=DIRECTION('center_axis',(0.,0.,-1.));
#112=DIRECTION('ref_axis',(-1.,0.,0.));
#113=DIRECTION('',(0.,0.,-1.));
#114=DIRECTION('center_axis',(0.,0.,-1.));
#115=DIRECTION('ref_axis',(-1.,0.,0.));
#116=DIRECTION('center_axis',(0.,0.,-1.));
#117=DIRECTION('ref_axis',(-1.,0.,0.));
#118=DIRECTION('center_axis',(0.,0.,-1.));
#119=DIRECTION('ref_axis',(-1.,0.,0.));
#120=CARTESIAN_POINT('',(0.,0.,0.));
#121=CARTESIAN_POINT('Origin',(0.,0.,0.));
#122=CARTESIAN_POINT('',(16.,1.95943487863577E-15,0.));
#123=CARTESIAN_POINT('Origin',(0.,0.,0.));
#124=CARTESIAN_POINT('',(16.,1.95943487863577E-15,1.5));
#125=CARTESIAN_POINT('',(16.,1.95943487863577E-15,0.));
#126=CARTESIAN_POINT('Origin',(0.,0.,1.5));
#127=CARTESIAN_POINT('Origin',(0.,0.,0.));
#128=CARTESIAN_POINT('',(20.,2.44929359829471E-15,1.5));
#129=CARTESIAN_POINT('Origin',(0.,0.,1.5));
#130=CARTESIAN_POINT('',(20.,2.44929359829471E-15,0.));
#131=CARTESIAN_POINT('',(20.,2.44929359829471E-15,0.));
#132=CARTESIAN_POINT('Origin',(0.,0.,0.));
#133=CARTESIAN_POINT('Origin',(0.,0.,1.5));
#134=CARTESIAN_POINT('Origin',(0.,0.,0.));
#135=UNCERTAINTY_MEASURE_WITH_UNIT(LENGTH_MEASURE(0.01),#139,
'DISTANCE_ACCURACY_VALUE',
'Maximum model space distance between geometric entities at asserted c
onnectivities');
#136=UNCERTAINTY_MEASURE_WITH_UNIT(LENGTH_MEASURE(0.01),#139,
'DISTANCE_ACCURACY_VALUE',
'Maximum model space distance between geometric entities at asserted c
onnectivities');
#137=(
GEOMETRIC_REPRESENTATION_CONTEXT(3)
GLOBAL_UNCERTAINTY_ASSIGNED_CONTEXT((#135))
GLOBAL_UNIT_ASSIGNED_CONTEXT((#139,#141,#142))
REPRESENTATION_CONTEXT('','3D')
);
#138=(
GEOMETRIC_REPRESENTATION_CONTEXT(3)
GLOBAL_UNCERTAINTY_ASSIGNED_CONTEXT((#136))
GLOBAL_UNIT_ASSIGNED_CONTEXT((#139,#141,#142))
REPRESENTATION_CONTEXT('','3D')
);
#139=(
LENGTH_UNIT()
NAMED_UNIT(*)
SI_UNIT(.MILLI.,.METRE.)
);
#140=(
LENGTH_UNIT()
NAMED_UNIT(*)
SI_UNIT(.CENTI.,.METRE.)
);
#141=(
NAMED_UNIT(*)
PLANE_ANGLE_UNIT()
SI_UNIT($,.RADIAN.)
);
#142=(
NAMED_UNIT(*)
SI_UNIT($,.STERADIAN.)
SOLID_ANGLE_UNIT()
);
#143=SHAPE_DEFINITION_REPRESENTATION(#144,#145);
#144=PRODUCT_DEFINITION_SHAPE('',$,#147);
#145=SHAPE_REPRESENTATION('',(#91),#137);
#146=PRODUCT_DEFINITION_CONTEXT('part definition',#151,'design');
#147=PRODUCT_DEFINITION('\X2\0414043504420430043B044C\X0\3',
'\X2\0414043504420430043B044C\X0\3',#148,#146);
#148=PRODUCT_DEFINITION_FORMATION('',$,#153);
#149=PRODUCT_RELATED_PRODUCT_CATEGORY('\X2\0414043504420430043B044C\X0\3',
'\X2\0414043504420430043B044C\X0\3',(#153));
#150=APPLICATION_PROTOCOL_DEFINITION('international standard',
'automotive_design',2009,#151);
#151=APPLICATION_CONTEXT(
'Core Data for Automotive Mechanical Design Process');
#152=PRODUCT_CONTEXT('part definition',#151,'mechanical');
#153=PRODUCT('\X2\0414043504420430043B044C\X0\3','\X2\0414043504420430043B044C\X0\3',
$,(#152));
#154=PRESENTATION_STYLE_ASSIGNMENT((#156));
#155=PRESENTATION_STYLE_ASSIGNMENT((#157));
#156=SURFACE_STYLE_USAGE(.BOTH.,#162);
#157=SURFACE_STYLE_USAGE(.BOTH.,#163);
#158=SURFACE_STYLE_RENDERING_WITH_PROPERTIES($,#170,(#160));
#159=SURFACE_STYLE_RENDERING_WITH_PROPERTIES($,#171,(#161));
#160=SURFACE_STYLE_TRANSPARENT(0.);
#161=SURFACE_STYLE_TRANSPARENT(0.);
#162=SURFACE_SIDE_STYLE('',(#164,#158));
#163=SURFACE_SIDE_STYLE('',(#165,#159));
#164=SURFACE_STYLE_FILL_AREA(#166);
#165=SURFACE_STYLE_FILL_AREA(#167);
#166=FILL_AREA_STYLE('',(#168));
#167=FILL_AREA_STYLE('',(#169));
#168=FILL_AREA_STYLE_COLOUR('',#170);
#169=FILL_AREA_STYLE_COLOUR('',#171);
#170=COLOUR_RGB('',0.749019607843137,0.749019607843137,0.749019607843137);
#171=COLOUR_RGB('',0.945098039215686,0.949019607843137,0.972549019607843);
ENDSEC;
END-ISO-10303-21;
